Monday, December 16, 2013

How to play guitar: Day 10

Follow http://www.mylearning.in/search/label/Guitar for complete tutorial

How to read the tab: 
Read from left to right and numbers indicate fret number.

Guitar tab for DDLJ:
e ----------7-5-7-3-5-8-7
B 5-5—5
G----------------------------
D-----------------------------
A-----------------------------
E-----------------------------
Tujhe dekha toh yeh jana sanam



e —------7-5-7-3-5
B 5-5—5------------8-7
Pyar hota hai dewana sanam


e------------------3-2
B5-7-3-5-7-3-5
Ab yaha se kahan jaye hum

e—--------------3-2--
B 5-7-3-5-7-3--------5
Tere baho mein mar jaye hum

URL: https://www.youtube.com/watch?v=F7toqpfQxFE

No comments:

Post a Comment